Помощь · Поиск · Пользователи · Календарь
Полная версия этой страницы: Исполнение песен Coldplay
форум Coldplace > Coldplay > Coldplay
ChekoJAMM
Кто-нибудь умеет играть песни Coldplay на музыкальных инструментах?
Я лично умею на клавах играть некоторые их песни.
Lya-Lya
На данный момент у меня просто нет доступа к фортепиано, но как только я приеду домой, где оно у меня стоит, первым делом займусь Scientist и Clocks, у меня уже все аккорды есть.
ChekoJAMM
Цитата(Lya-Lya @ 18.3.2006, 7:48) *

На данный момент у меня просто нет доступа к фортепиано, но как только я приеду домой, где оно у меня стоит, первым делом займусь Scientist и Clocks, у меня уже все аккорды есть.


Эти я выучил.gp3 советую качать отсюда:http://guitarpro1.narod.ru/russ.html
SnorLaX
Играю на гитаре и барабанах, полностью играем In my place, Daylight, Don't panic....
И много так частично....
Конечно с аккордами они мутят..это не наши Am Dm
kukka
На акустике играю. Почти каждый день играю Колдплей
Бумумук
Привет!
Если есть возможность выкладывайте ноты, пожалуста. smile.gif
Lya-Lya
Цитата(SnorLaX @ 16.4.2006, 13:07) *

Конечно с аккордами они мутят..это не наши Am Dm

То-то я смотрю, херня какая-то выходит... blink.gif
SnorLaX
Цитата(Lya-Lya @ 22.7.2006, 23:49) *

То-то я смотрю, херня какая-то выходит... blink.gif

ну так ты наверное на скрипке играешь? поэтому и не выходит....

и ты попробуй на гитаре сыграть am c f получиться don't panic
SnorLaX
Если кому интересно могу повыкладывать аккорды и настройки на песни yes.gif
Ну конечно если надо..
SnorLaX
Green Eyes
Standard Tuning


0---0---0---0
2---5---3---3
2---4---4---2
2---2---4---4
0---X---2---2
X---3---X---X

Green Eyes...

0---0---0---0
3---3---2---5
4---2---2---4
4---0---2---2
2---X---0---X
X---X---X---3

This is that chord change into 'I came here with...'
0---0---0
5---5---5
4---4---6
2---0---6
X---X---4
3---3---X

I came here with...
0---0---0---0---0---0---0
3---3---2---2---0---3---5
4---4---3---2---0---2---6
4---4---0---2---0---0---6
2---X---X---0---2---X---4
X---2---X---X---3---2---X

SWALLOWED IN THE SEA (ACOUSTIC)
Tuning: EADGBD#

0---0---0
7---0---0
8---3---1
9---4---2
9---4---2
7---2---0

I could write a song
0---0---0---0
0---7---0---0
1---8---4---3
2---9---6---4
2---9---6---4
0---7---4---2


OOOOOAAAAAAAAAHHHH

0-----0----0-----0
9-----0----7-----0
9-----1----8-----3
11----2---9------4
11----2---9------4
9-----0----7-----2



0-----12-----0-----0
9-----12-----7-----0
9-----13-----8-----3
11----14----9------4
11----14----9------4
9-----12-----7-----2
GrIN.
клево, спасибо! smile.gif
а еще? rolleyes.gif
SnorLaX
Пжалуйсто =))

TROUBLE ACOUSTIC (VH1)
Tuning EADGBD

0--0--0--0
3--7--7--7
4--0--7--6
5--5--9--9
5--7--9--9
3--0--7--7

0--0--0
1--1--3
2--2--4
3--2--5
3--0--5
1--x--3


I never meant...
0---0
5---0
6---0
7---2
7---2
5---0



0---0---0-----0
8---8---7----10
0---0---7-----0
9---9---0----11
10--7---9----12
x---0---7-----x

They spun a web
0---0---0
0---2---3
0---2---4
2---4---5
2---4---5
0---2---3

FIX YOU (ACOUSTIC)
Tuning down 1/2 step
0--0---0---0
0--0---9---7
1--4---9---8
2--6--11---9
2--6--11---9
0--4---9---7

Lights will guide...
0---0---0
0---0---7
6---4---8
7---6---9
7---6---9
5---4---7



0---0---0---0
0---7---0---0
1---8---1---1
2---9---2---1
2---9---2---2
0---7---0---0

A MESSAGE (ACOUSTIC)
Tuning: EADGCC
0
0
9
10
10
8

0
0
4
5
5
3

0
0
2
3
3
1

0
0
0
2
3
3

Chorus

0
0
10
12
12
10

0
0
9
10
10
8

0
0
4
5
5
3


0
0
2
3
3
1

0
0
0
2
3
3

0
0
0
0
2
3

0
0
2
2
0
X

YELLOW (ACOUSTIC)

Tuning
EABGBD#

Intro

0-----0
0-----0
8-----9
7-----7
9-----9
7-----7

Verse

0------0------0
0------2------0
8------3------1
7------4------0
9------4------2
7------2------0

Chorus

0---0---0
0---4---2
1---4---3
0---0---4
2---6---4
0---4---2

Outro

0---1---0
0---0---0
8---2---1
7---2---0
9---x---2
7---2---0
GrIN.
woot.gif еще спасибо! biggrin.gif ща будем испытывать.. smile.gif
SnorLaX
TILL' KINGDOM COME

Tuning: CACGBE

Verse:
0---0---0
1---3---5
0---0---0
0---0---0
3---5---7
0---x---x


0----0----0----0----0-----0----0
8----5----6----3----5-----0----1
0----0----0----0----0-----0----0
0----0----0----0----0-----0----0
10---7---8----5-----7----2----3
x----x----x----x----x-----x----0

And the wheels...
0----0---0
10---6---1
0----0---0
0----0---0
12---8---3
x----x---0
and then..."I don't know which way...
0---0----0
6---8----1
0---0----0
0---0----0
8---10---3
x---x----x

For you I'd wait
0---0---0
6---8---1
0---0---0
0---0---0
8--10---3
x---x---x

So say...
0---0---0
6---8---10
0---0---0
0---0---0
8--10---12
x---x---x

Just say you'll wait. You'll wait for me
0----0----0
8----6----1
0----0----0
0----0----0
10--8-----3
x----x----0

WE NEVER CHANGE

Tuning: EADGBC#

0----0----0
0----0----0
2----1----7
4----2----9
4----2----9
2----0----7

We Never...
0---0
0---0
6---9
7---11
7---11
5---9

0---0
0---0
7---2
9---4
9---4
7---2

so i wanna...

0---0---0---0---0---0----0
0---0---0---0---0---10---0
7---2---1---7---2---11---7
9---4---2---9---4---12---9
9---4---2---9---4---12---9
7---2---0---7---2---10---7
SnorLaX
GRAVITY (ACOUSTIC)

Tuning: Down to D#
Verse:
0---0---0-----0
0---0---0-----0
1---9---4-----6
2---11--6-----7
2---11--6-----7
0---9---4-----5

Chorus:
0----0----0----0-----0
0----0----0----0-----0
6----1----9----6-----2
7----2----11---7-----4
7----2----11---7-----4
5----0----9----5-----2


HAVE YOURSELF A MERRY LITTLE CHRISTMAS (TRANSCRIBED)

Capo: 1st Fret

2---------
0---------
0-------0-
0---------
2--2------
3---------

0----------------
0----------------0
0----------0-----
2----2-----------
2-----------------
0-----------------

5-------------------
5------------------5
5--------------------
7-------------7------
7--------7-----------
5----5---------------

7----5
7----7
7----7
7----7
5----5
x----x


2---0---5---7---7---7---7
0---0---5---7---8---0---0
0---0---5---8---9---0---0
0---2---7---9---9---5---5
2---2---7---9---7---6---5
3---0---5---7---x---x---x

7
0
0
5
4
x

icerty
хороший урок
http://www.youtube.com/watch?v=8e4-UyceBhU
SnorLaX
EADGBE

F#m Gmaj7 Bm A6 Eadd9/G# Gmaj7
e|-2----2----2----2-| x4 |-2----2-| x2
b|-2----0----3----2-| |-5----0-|
g|-2----0----4----2-| |-4----0-|
d|-4----0----4----2-| |-2----0-|
a|-4----x----2----0-| |-x----x-|
e|-2----3-----------| |-4----3-|

F#m Gmaj7 Bm A6
Trying hard to speak and fighting with my weak hand.
Driven to distraction, it's all part of the plan.
When Something is broken and you try to fix it.
Trying to repair it, anyway you can. Eadd9/G#

Verse

F#m Gmaj7 Bm A6 F#7 Gmaj7 Bm A6
|-2----2----2----2-| x2 |-2----2----2----2-| x2
|-2----0----3----2-| |-2----0----3----2-|
|-2----0----4----2-| |-2----0----4----2-|
|-4----0----4----2-| |-4----0----4----2-|
|-4----x----2----0-| |-4----x----2----0-|
|-2----3-----------| |-2----3-----------|

lead gtr w/slide, slight dist+echo

e| -7/14-
I dive in at the deep end, you become my best friend
7/14- 14\9-
I wanna love you, but I don't know if I can
6/7/9/10\7-7 7/9/10/12\9-9
I know something is broken, and I'm trying to fix it
6/7/9/10\7-7 7/9/10/12\9--10\7
Trying to repair it, any way I can

Pre-Chorus

E/G# Gmaj7
|-2----2-| x4
|-5----0-|
|-4----0-|
|-2----0-|
|-x----x-|
|-4----3-|

e| -10\7- -10\7- -10\7- (two gtrs)
e| -7\4- -2/4- -7\4-
Ooh ooh ooh ooh ooh ooh...

Chorus

Dadd9 Cadd#4 E7 or G6 E/G#*
|-0----0----0----0-| x2 |-0----0-| x2
|-3----1----3----3-| |-3----5-|
|-2----0----4----1-| |-4----4-|
|-4----4----6----2-| |-5----6-|
|-5----3----x----2-| |-x----x-|
|-----------0----0-| |-x----x-|

lead gtr, clean
e|---------0-----------------0-------------------------|
B|-----3-----3-----------1-----1-----------7---5---3---|
G|---2---2-----2-------0---0-----0-------4---4---4---4-|
D|-4-------------4---4-------------4---6---------------|
A|-----------------------------------------------------|
E|-----------------------------------------------------|

e|-0---------0---------------0-----------------0-------|
B|---3---3-----3---------3-----3-----------1-----1-----|
G|-----4---4-----4-----2---2-----2-------0---0-----0---|
D|-------------------4-------------4---4-------------4-|
A|-----------------------------------------------------|
E|-----------------------------------------------------|

e|------------------0---------0---------------0--------|
B|-----7---5---3-------3---3-----3---------3-----3-----|
G|---4---4---4---4-------4---4-----4-----4---4-----4---|
D|-6-----------------------------------5-------------5-|
A|-----------------------------------------------------|
E|-----------------------------------------------------|

e|----------0---------------0--|
B|------3-----3-----------5----|
G|----4---4-----4-------4------|
D|--5-------------5---6--------|
A|-----------------------------|
E|-----------------------------|

You and me are floating on a tidal wave...
Together
You and me are drifting into outer space...
And singing
Ooh ooh ooh ooh ooh ooh...

Interlude

F#m Gmaj7 Bm A6
|-2----2----2----2-| x3
|-2----0----3----2-|
|-2----0----4----2-|
|-4----0----4----2-|
|-4----x----2----0-|
|-2----3-----------|

two lead gtrs 1 w/dist
e|-14--14--14--14---15--14---17--17---15--14---17--17-|
B|-x---x---15--14---x---x----x---x----x---x----x---x--|
G|-14--16-----------15--16---19--18---15--16---19--18-|
D|----------------------------------------------------|
A|----------------------------------------------------|
E|----------------------------------------------------|

2 w/dist+echo
e|--------------------------------------------------------------------------------------|
B|--------------------------------------------------------------------------------------|
G|--------------------------------------------------------------------------------------|
D|-11b12-11-9--9/16b17--16-16-16\11b12--11\9--9/16b17----16-16--11b12--11\9--9\4b5--4-4-|
A|--------------------------------------------------------------------------------------|
E|--------------------------------------------------------------------------------------|

Coda

Dadd9 Cadd#4 E7 x2
G6 E/G#* x4

two lead gtrs
1 - Chorus Arpeggios, 2 (same time):-
e|-3^2-----3^2-----3^2-----3^2------5^4-----5^4-----|
B|-----3-------3-------1-------1--------3-------3---|
G|-------2-------2-------2-------2--------4-------4-|
D|--------------------------------------------------|
A|--------------------------------------------------|
E|--------------------------------------------------|

e|-5^4-----5^4-----3^2-----3^2------3^2-----3^2-----|
B|-----3-------3-------3-------3--------1-------1---|
G|-------4-------4-------2-------2--------2-------2-|
D|--------------------------------------------------|
A|--------------------------------------------------|
E|--------------------------------------------------|

e|--5^4-----5^4--------5^4-----5^4-----|
B|------3-------3----------3-------3---|
G|--------4-------4----------4-------4-|
D|-------------------------------------|
A|-------------------------------------|
E|-------------------------------------|

You and me are floating on a tidal wave...
Together
You and me are drifting into outer space...
And singing

lead 1
e|-3--3--3--3--3--3--3--3--4-4-4-4-4-4-4-4-| x2
B|-3--3--3--3--3--3--3--3--3-3-3-3-3-3-3-3-|
G|-----------------------------------------|
D|-----------------------------------------|
A|-----------------------------------------|
E|-----------------------------------------|

lead 2 (same time) w/dist
e|--------0---------------0-| x4
B|----3-----3-----------5---|
G|--4---4-----4-------4-----|
D|5-------------5---6-------|
A|--------------------------|
E|--------------------------|

lead 1 (over last 2 of lead 2)
e|-15-15-15-15-15-15-15-15--16-16-16-16-16-16-16-16---15-15-15-15-15-15-15-15--4-4-4-4-4-4-4-4-|
B|-15-15-15-15-15-15-15-15--15-15-15-15-15-15-15-15---15-15-15-15-15-15-15-15--3-3-3-3-3-3-3-3-|
G|---------------------------------------------------------------------------------------------|
D|---------------------------------------------------------------------------------------------|
A|---------------------------------------------------------------------------------------------|
E|---------------------------------------------------------------------------------------------|

Ooh ooh ooh ooh ooh ooh...

Outro

D Am/C E7 G E/G#
|-2----0----0------3----4-|
|-3----1----3------3----5-|
|-2----2----4------4----4-|
|-0----x----6------5----6-|
|------3----x------x----x-|
|-----------0------3----4-|

lead (string arr.)
|-2--------------------------------------------------------|
|-3---3---3---3----1---1---1---1----3---3---3---3---|
|-2-2---2---2---2----2---2---2---2----1---1---1---1-|
|-0--------------------------------------------------------|
|------------------3---------------------------------------|
|-----------------------------------0----------------------|

|---------------------------------------------------------------|
|-3---3---3---3----3---3---3---3----3---3----3--3--5--7-|
|---1---1---1---1----1---1---1---1----1---1--4--4--4--7-|
|--------------------------------------------4--5--6-----------|
|--------------------------------------------x--x--X-----------|
|--------------------------------------------2--3--4-----------|


только я так и не смог ссыграть может у кого получится
Willy
Играю на пиано The Scientist. Когда-то даже ноты записывал smile.gif Если найду - выложу в и-нете и кину ссылочку wink.gif
Gem
Ну нафига это нужно-тут выкладывать. Кому нужно-тот найдет и так. Файлов в сети дохренище. Я играю. И с аккордами у них там просто все. Ученый так вообще элементарно играется, что на гитаре, что на пианино.
SnorLaX
Цитата(British Pilot @ 15.2.2007, 3:56) *

Ну нафига это нужно-тут выкладывать. Кому нужно-тот найдет и так. Файлов в сети дохренище. Я играю. И с аккордами у них там просто все. Ученый так вообще элементарно играется, что на гитаре, что на пианино.


Ага очень просто..на каждую песню своя настройка, вот и мучайся.
Взять скажем See You Soon, мало того что там перестаивать надо, так ещё и капо.. А чтобы ссыграть нормально нужно ритм чувствовать..

Согласен Scientist не очень трудно, когда один играешь, а когда в коллективе намного труднее.

P.S Если тебе аккорды не нужны, или у тя слух хороший не заглядывай в этот раздел, здесь только одни бездарности
SnorLaX
Только песня появилась, а её уже умеют играть http://www.youtube.com/watch?v=9oSUhyqYnVY&NR
Фиг угонишься = ))
Gem
Цитата(SnorLaX @ 18.2.2007, 17:55) *

Ага очень просто..на каждую песню своя настройка, вот и мучайся.
Взять скажем See You Soon, мало того что там перестаивать надо, так ещё и капо.. А чтобы ссыграть нормально нужно ритм чувствовать..

Согласен Scientist не очень трудно, когда один играешь, а когда в коллективе намного труднее.

P.S Если тебе аккорды не нужны, или у тя слух хороший не заглядывай в этот раздел, здесь только одни бездарности

Calm down smile.gif
Все намана... Просто ненужная тема имхо.
SnorLaX
Цитата(British Pilot @ 21.2.2007, 3:25) *

Calm down smile.gif
Все намана... Просто ненужная тема имхо.

Найди мне табы для How You See The World, а то видим оу меня руки кривые
ani
rolleyes.gif сказка какая-то про белого бычка.. нужно-не нужно.. раз тему создали -- значит, кому-то она нужна. кому не интересно -- никто ведь не заставляет читать. неужели прям так глаза мозолит? blink.gif
тогда, получается, и музыку на форуме выкладывать не нужно, ведь всё можно найти в интернете..

--
вот здесь, кстати, вроде бы есть кое-какие нотки для пианино..
icerty
Цитата(SnorLaX @ 22.2.2007, 11:53) *

Найди мне табы для How You See The World, а то видим оу меня руки кривые

4 fr.
e -x-|---|---|---|---|
B -x-|---|---|---|---|
G -x-|---|---|---|---|
D ---|---|-x-|---|---|
A ---|---|-x-|---|---|
E -x-|---|---|---|---| Am

e ---|---|---|---|---|
B -x-|---|---|---|---|
G ---|-x-|---|---|---|
D ---|-x-|---|---|---|
A ---|---|---|---|---|
E ---|---|---|---|---| D

e ---|-x-|---|---|---|
B ---|---|-x-|---|---|
G ---|-x-|---|---|---|
D ---|---|---|---|---|
A ---|---|---|---|---|
E ---|---|---|---|---| E

e ---|---|---|---|---|
B ---|---|---|---|---|
G -x-|---|---|---|---|
D ---|-x-|---|---|---|
A ---|-x-|---|---|---|
E ---|---|---|---|---|
Cm

e ---|---|-o-|---|---|
B -x-|---|---|---|---|
G ---|---|---|---|---|
D -x-|---|---|---|---|
A ---|---|-x-|---|---|
E ---|---|---|---|---| Dm

e -x-|---|---|---|---|
B ---|---|-x-|---|---|
G ---|-x-|---|---|---|
D ---|---|---|---|---|
A ---|---|---|---|---|
E ---|---|---|---|---| F

e -x-|---|---|---|---|
B -x-|---|---|---|---|
G ---|-x-|---|---|---|
D ---|---|-x-|---|---|
A ---|---|-x-|---|---|
E -x-|---|---|---|---| A

e ---|---|---|---|---|
B ---|-x-|---|---|---|
G ---|-x-|---|---|---|
D ---|-x-|---|---|---|
A ---|---|---|---|---|
E ---|---|---|---|---|



Am
Are you missing something
E
Looking for something
Am
Tired of everything
E
Searching and struggling
Am
Are you worried about it
E
Do you wanna talk about it
Dm Am E
Ohohoh You're gonna get it right sometimes


Am
Theres so much to be scared of
E
And not much to make sense of
Am
Are you running in a circle
E
You can't be too careful
Am
And you can't relate it
E
Cos it's complicated
Dm Am E
Ohohoh You're gonna get it right sometimes
Dm Am E
You're gonna get it right sometimes

E

F Am
It's how you see the world
Dm
How many times can you say
F
You can't believe what you heard

F Am
It's how you see the world
Dm
Don't you worry yourself
Am
Your not gonna get hurt

E Am
Oooohhhhh...
E Am

E

Am
Is there something missing
E
There's nobody listening
Am
Are you scared but you don't know
E
Don't wanna end up on your own
Am
You need conversation
E
and information
Dm Am E
Ohohoh You're gonna get it right sometimes
Dm Am E
You just wanna get it right sometimes

F Am
It's how you see the world
Dm
How many times have you heard
F
You can't believe a word

F Am
It's how you see the world
Dm
Don't you worry yourself
Am
'Cause nobody can hurt

E E
Oooohhhhh... Oooohhhhh...
A A
Oooohhhhh...


F Am

Dm Am

F Am
It's how you see the world
Dm Am
It's how you see the world
SnorLaX
Цитата(icerty @ 7.3.2007, 19:03) *

4 fr.
e -x-|---|---|---|---|
B -x-|---|---|---|---|
G -x-|---|---|---|---|
D ---|---|-x-|---|---|
A ---|---|-x-|---|---|
E -x-|---|---|---|---| Am
...

примечание от санти: пожалуйста, сокращайте цитаты, какой смысл в данном случае цитировать все

Спасибо =))
K.A.P.b14
Подскажите, где можно в рунете хорошие уроки по гитаре найти, а то с пианом лады
smile.gif с баяном тем более ( 7 лет на него в муз. школе угробил) , а с гитарой отношения не складываются
sad.gif наверно, она меня не любит
smile.gif
Gem
Цитата(K.A.P.b14 @ 14.4.2007, 17:47) *

Подскажите, где можно в рунете хорошие уроки по гитаре найти, а то с пианом лады
smile.gif с баяном тем более ( 7 лет на него в муз. школе угробил) , а с гитарой отношения не складываются
sad.gif наверно, она меня не любит
smile.gif

Лучше обратись к педагогу. Он всем тебе поможет.
SnorLaX
Хочу поделится одним фрагментом моей жизни.

Это было 10 августа 2007 года.
На улице стояла холодная, по осеннему, погода. Но я знал что сегодня, она нам не помешает.

Сегодня было открытие фестиваля "Надежда", фестиваль молодых, начинаещих коллективов.
Так как наша группа не особенно начинающая, нас сделали "Хедлайнерами" фестиваля.
Организаторы сделали ставку на контрасте: Техника против Драйва.
Мы были на стороне техники, а другая группа в роле Драйва, они играют Панк и что-то ещё.

В 7 утра меня толкнули в бок, это был верный знак того, что пора просыпатся и прогонять программу.
Мы решили взять программу COLDPLAY-LIve Toronto 2006, за некоторым исключением песен.
Саундчек проходил неплохо, были ошибки, но вообщем неплохо. Я в группе гитарист, мои Telecaster и Stratocaster были на готове..

Собрав вещи мы двинулись на площадку, проверять и подключать оборудование.
Вскоре все было настроено и проверенно. Час Х приближался..
Народ потихоньку подходил, промо акция работала на Ура!!..

Square One
После первых аккордов, народ подумал не ошибся ли Я, ведь Драйв вроде завтра..
Это было очень сильно, народ начинал разогреватся, а кто уже начал приплясывать.

Politik
Теперь все точно решили что сегодня день Драйва.
Барабанщик работал на всю, того и гляди тарелки отлетят.
Синтезатор конечно не пианино, но тоже звучал не плохо.

Yellow.
Меня ещё потом долго спрашивали, как называется эта песня.
Действительно всем, или почти всем, понравилось.

Speed Of Sound.
Это был первый провал.
Этот долбанный Delay как Johny с ним управляется.
Песня очень трудно играется.. И очень трудно поется..
Теперь я это знаю.

God Put A Smile Upon Your Face
В технике игры одна из сложнейших.
Ритм аккустической гитары трудно уловить..
Так что наш "ФронтМент" раза 2-3 сбивался..
Но благодаря Бассу все подумали что так и должно быть.

How You See The World No. 2
После этой песни все поняли что сегодня Техника.
Последний соло ссыграл как в сингле, а не как на концерте.

Don't Panic
Без коментариев, просто, и локанично.
Просто чтобы передохнуть.
Была ссыграна в духе Glsto2002 с интро

White Shadows
За эту песню я боялся больше всего
Начальное вступление и вообще было не очень хорошо отработанно, но все неплохо..

Clocks
Заряд энергии на весь оставшийся день.
Думали ссыграть как на концерте в конце с увеличинием темпа, но потом передумали.

Swallowed In The Sea
Была исполнена в аккустическом варианте..
Красиво и спокойно, и потихоньку выход на конец..

In My Place
Была последней нашей и любимой песней.
Выступление окончено

Устал..Но из-за того что сильно нервничал, думаю всем понравилось, может кто-нить теперь купит себе будующий альбом COLDPLAY
SnorLaX
Gem
видео давай.
SnorLaX
Цитата(Gem @ 12.8.2007, 0:47) *
видео давай.

Как только так сразу
cherry_blossom_girl
было бы прикольно, если сюда будут выкладывать записи и видео как вы играете rolleyes.gif

а я вообще лузер..я могу играть только зажеванную пленку..
GrIN.
Цитата(SnorLaX @ 11.8.2007, 21:32) *
Устал..Но из-за того что сильно нервничал, думаю всем понравилось, может кто-нить теперь купит себе будующий альбом COLDPLAY

rolleyes.gif
мне уже по описанию понравилось, так что я бы больше хотела побывать на вашем концерте, чем ждать будущего альбома колдплей.. rolleyes.gif cool.gif
SnorLaX
Цитата(GrIN. @ 19.8.2007, 16:13) *
rolleyes.gif
мне уже по описанию понравилось, так что я бы больше хотела побывать на вашем концерте, чем ждать будущего альбома колдплей.. rolleyes.gif cool.gif

Это честь для меня, слышать такие слова =)
Sharif
А я вот не умею , вот хочу начать учиться играть на гитаре ...
Раздел имущества
watch movies online
watch movies online